ISO-10303-21;
HEADER;
FILE_DESCRIPTION (( 'STEP AP203' ),
    '1' );
FILE_NAME ('1.24.F03.STEP',
    '2019-05-29T11:34:58',
    ( '' ),
    ( '' ),
    'SwSTEP 2.0',
    'SolidWorks 2018',
    '' );
FILE_SCHEMA (( 'CONFIG_CONTROL_DESIGN' ));
ENDSEC;

DATA;
#1 = LOCAL_TIME ( 14, 34, 58.00000000000000000, #257 ) ;
#2 = CARTESIAN_POINT ( 'NONE',  ( -8.673617379884035472E-16, 7.499999999999999112, 60.00000000000000000 ) ) ;
#3 = VERTEX_POINT ( 'NONE', #286 ) ;
#4 = DIRECTION ( 'NONE',  ( 0.0000000000000000000, 0.0000000000000000000, 1.000000000000000000 ) ) ;
#5 = CC_DESIGN_PERSON_AND_ORGANIZATION_ASSIGNMENT ( #48, #252, ( #103 ) ) ;
#6 = DIRECTION ( 'NONE',  ( 1.000000000000000000, 0.0000000000000000000, 0.0000000000000000000 ) ) ;
#7 = CARTESIAN_POINT ( 'NONE',  ( -8.673617379884035472E-16, 7.500000000000000000, 60.00000000000000000 ) ) ;
#8 = EDGE_CURVE ( 'NONE', #3, #196, #172, .T. ) ;
#9 = PLANE ( 'NONE',  #92 ) ;
#10 =( NAMED_UNIT ( * ) PLANE_ANGLE_UNIT ( ) SI_UNIT ( $, .RADIAN. ) );
#11 = ADVANCED_FACE ( 'NONE', ( #211 ), #134, .T. ) ;
#12 = FACE_OUTER_BOUND ( 'NONE', #178, .T. ) ;
#13 = DIRECTION ( 'NONE',  ( -0.0000000000000000000, -0.0000000000000000000, -1.000000000000000000 ) ) ;
#14 = DATE_AND_TIME ( #106, #81 ) ;
#15 = DIRECTION ( 'NONE',  ( 0.0000000000000000000, 0.0000000000000000000, 1.000000000000000000 ) ) ;
#16 = AXIS2_PLACEMENT_3D ( 'NONE', #245, #35, #4 ) ;
#17 = VECTOR ( 'NONE', #83, 1000.000000000000000 ) ;
#18 = CARTESIAN_POINT ( 'NONE',  ( 14.99999999999999822, -7.500000000000000888, 120.0000000000000000 ) ) ;
#19 = ORIENTED_EDGE ( 'NONE', *, *, #251, .T. ) ;
#20 = CYLINDRICAL_SURFACE ( 'NONE', #206, 6.999999999999992006 ) ;
#21 = EDGE_LOOP ( 'NONE', ( #201, #53, #212, #229 ) ) ;
#22 = FACE_OUTER_BOUND ( 'NONE', #214, .T. ) ;
#23 = FACE_OUTER_BOUND ( 'NONE', #300, .T. ) ;
#24 = APPROVAL ( #70, 'UNSPECIFIED' ) ;
#25 = APPROVAL_DATE_TIME ( #209, #87 ) ;
#26 = LINE ( 'NONE', #137, #91 ) ;
#27 = EDGE_CURVE ( 'NONE', #196, #3, #276, .T. ) ;
#28 = APPROVAL_DATE_TIME ( #101, #123 ) ;
#29 = CC_DESIGN_PERSON_AND_ORGANIZATION_ASSIGNMENT ( #287, #38, ( #222 ) ) ;
#30 = DIRECTION ( 'NONE',  ( -0.0000000000000000000, 1.000000000000000000, -0.0000000000000000000 ) ) ;
#31 = LINE ( 'NONE', #111, #52 ) ;
#32 = ORIENTED_EDGE ( 'NONE', *, *, #122, .T. ) ;
#33 = CARTESIAN_POINT ( 'NONE',  ( -15.00000000000000178, -7.500000000000000888, 0.0000000000000000000 ) ) ;
#34 = CARTESIAN_POINT ( 'NONE',  ( -15.00000000000000178, -7.500000000000000888, 120.0000000000000000 ) ) ;
#35 = DIRECTION ( 'NONE',  ( -1.000000000000000000, 0.0000000000000000000, 0.0000000000000000000 ) ) ;
#36 = PLANE ( 'NONE',  #16 ) ;
#37 = ADVANCED_FACE ( 'NONE', ( #253 ), #265, .F. ) ;
#38 = PERSON_AND_ORGANIZATION_ROLE ( 'classification_officer' ) ;
#39 = COORDINATED_UNIVERSAL_TIME_OFFSET ( 2, 0, .AHEAD. ) ;
#40 = EDGE_CURVE ( 'NONE', #50, #234, #94, .T. ) ;
#41 = APPROVAL_STATUS ( 'not_yet_approved' ) ;
#42 = VERTEX_POINT ( 'NONE', #33 ) ;
#43 = ORIENTED_EDGE ( 'NONE', *, *, #216, .F. ) ;
#44 = LINE ( 'NONE', #279, #302 ) ;
#45 = MECHANICAL_CONTEXT ( 'NONE', #121, 'mechanical' ) ;
#46 = PRODUCT_RELATED_PRODUCT_CATEGORY ( 'detail', '', ( #103 ) ) ;
#47 = EDGE_LOOP ( 'NONE', ( #289, #266, #54, #102 ) ) ;
#48 = PERSON_AND_ORGANIZATION ( #240, #109 ) ;
#49 = EDGE_CURVE ( 'NONE', #285, #42, #31, .T. ) ;
#50 = VERTEX_POINT ( 'NONE', #297 ) ;
#51 = EDGE_LOOP ( 'NONE', ( #176, #89 ) ) ;
#52 = VECTOR ( 'NONE', #269, 1000.000000000000000 ) ;
#53 = ORIENTED_EDGE ( 'NONE', *, *, #167, .F. ) ;
#54 = ORIENTED_EDGE ( 'NONE', *, *, #122, .F. ) ;
#55 = AXIS2_PLACEMENT_3D ( 'NONE', #262, #263, #288 ) ;
#56 = DIRECTION ( 'NONE',  ( -1.000000000000000000, 0.0000000000000000000, -0.0000000000000000000 ) ) ;
#57 = CARTESIAN_POINT ( 'NONE',  ( -15.00000000000000178, 7.499999999999999112, 0.0000000000000000000 ) ) ;
#58 = DIRECTION ( 'NONE',  ( 1.000000000000000000, 0.0000000000000000000, 0.0000000000000000000 ) ) ;
#59 = FACE_OUTER_BOUND ( 'NONE', #21, .T. ) ;
#60 = PRODUCT_DEFINITION_FORMATION_WITH_SPECIFIED_SOURCE ( 'ANY', '', #103, .NOT_KNOWN. ) ;
#61 = CARTESIAN_POINT ( 'NONE',  ( -8.673617379884035472E-16, 7.499999999999999112, 66.99999999999998579 ) ) ;
#62 = CLOSED_SHELL ( 'NONE', ( #202, #145, #67, #90, #227, #299, #11, #37 ) ) ;
#63 = CARTESIAN_POINT ( 'NONE',  ( -8.673617379884035472E-16, 7.499999999999999112, 60.00000000000000000 ) ) ;
#64 = APPROVAL_PERSON_ORGANIZATION ( #131, #87, #93 ) ;
#65 = EDGE_CURVE ( 'NONE', #295, #128, #204, .T. ) ;
#66 = ORIENTED_EDGE ( 'NONE', *, *, #283, .F. ) ;
#67 = ADVANCED_FACE ( 'NONE', ( #136, #59 ), #9, .F. ) ;
#68 = APPROVAL_ROLE ( '' ) ;
#69 = DIRECTION ( 'NONE',  ( -1.000000000000000000, -0.0000000000000000000, -0.0000000000000000000 ) ) ;
#70 = APPROVAL_STATUS ( 'not_yet_approved' ) ;
#71 = VERTEX_POINT ( 'NONE', #291 ) ;
#72 = PERSON_AND_ORGANIZATION_ROLE ( 'design_supplier' ) ;
#73 = AXIS2_PLACEMENT_3D ( 'NONE', #304, #301, #277 ) ;
#74 = AXIS2_PLACEMENT_3D ( 'NONE', #80, #30, #243 ) ;
#75 = VERTEX_POINT ( 'NONE', #175 ) ;
#76 = CC_DESIGN_PERSON_AND_ORGANIZATION_ASSIGNMENT ( #270, #143, ( #186 ) ) ;
#77 = VECTOR ( 'NONE', #142, 1000.000000000000000 ) ;
#78 = APPROVAL_DATE_TIME ( #183, #24 ) ;
#79 = PRODUCT_DEFINITION_SHAPE ( 'NONE', 'NONE',  #186 ) ;
#80 = CARTESIAN_POINT ( 'NONE',  ( -8.673617379884035472E-16, -7.500000000000000888, 60.00000000000000000 ) ) ;
#81 = LOCAL_TIME ( 14, 34, 58.00000000000000000, #170 ) ;
#82 = PERSON_AND_ORGANIZATION ( #240, #109 ) ;
#83 = DIRECTION ( 'NONE',  ( 1.000000000000000000, 0.0000000000000000000, 0.0000000000000000000 ) ) ;
#84 = DIRECTION ( 'NONE',  ( -1.000000000000000000, -0.0000000000000000000, -0.0000000000000000000 ) ) ;
#85 = DIRECTION ( 'NONE',  ( -0.0000000000000000000, -0.0000000000000000000, -1.000000000000000000 ) ) ;
#86 = COORDINATED_UNIVERSAL_TIME_OFFSET ( 2, 0, .AHEAD. ) ;
#87 = APPROVAL ( #230, 'UNSPECIFIED' ) ;
#88 = CARTESIAN_POINT ( 'NONE',  ( -1.010897858525752554E-17, 7.500000000000000000, 53.00000000000000711 ) ) ;
#89 = ORIENTED_EDGE ( 'NONE', *, *, #236, .F. ) ;
#90 = ADVANCED_FACE ( 'NONE', ( #132 ), #271, .F. ) ;
#91 = VECTOR ( 'NONE', #135, 1000.000000000000000 ) ;
#92 = AXIS2_PLACEMENT_3D ( 'NONE', #223, #199, #226 ) ;
#93 = APPROVAL_ROLE ( '' ) ;
#94 = CIRCLE ( 'NONE', #125, 6.999999999999992006 ) ;
#95 = DIRECTION ( 'NONE',  ( -0.0000000000000000000, 1.000000000000000000, -0.0000000000000000000 ) ) ;
#96 = CARTESIAN_POINT ( 'NONE',  ( 0.0000000000000000000, 0.0000000000000000000, 120.0000000000000000 ) ) ;
#97 = DATE_TIME_ROLE ( 'classification_date' ) ;
#98 = CALENDAR_DATE ( 2019, 29, 5 ) ;
#99 = VECTOR ( 'NONE', #180, 1000.000000000000000 ) ;
#100 = EDGE_CURVE ( 'NONE', #232, #42, #306, .T. ) ;
#101 = DATE_AND_TIME ( #282, #161 ) ;
#102 = ORIENTED_EDGE ( 'NONE', *, *, #167, .T. ) ;
#103 = PRODUCT ( '1.24.F03', '1.24.F03', '', ( #45 ) ) ;
#104 = APPROVAL_PERSON_ORGANIZATION ( #82, #24, #68 ) ;
#105 = CC_DESIGN_DATE_AND_TIME_ASSIGNMENT ( #14, #97, ( #222 ) ) ;
#106 = CALENDAR_DATE ( 2019, 29, 5 ) ;
#107 = AXIS2_PLACEMENT_3D ( 'NONE', #2, #218, #130 ) ;
#108 = ORIENTED_EDGE ( 'NONE', *, *, #159, .F. ) ;
#109 = ORGANIZATION ( 'UNSPECIFIED', 'UNSPECIFIED', '' ) ;
#110 = CARTESIAN_POINT ( 'NONE',  ( -15.00000000000000178, -7.500000000000000888, 120.0000000000000000 ) ) ;
#111 = CARTESIAN_POINT ( 'NONE',  ( -15.00000000000000178, -7.500000000000000888, 120.0000000000000000 ) ) ;
#112 = ORIENTED_EDGE ( 'NONE', *, *, #308, .F. ) ;
#113 = CIRCLE ( 'NONE', #73, 6.999999999999992006 ) ;
#114 = EDGE_CURVE ( 'NONE', #42, #75, #242, .T. ) ;
#115 = DIRECTION ( 'NONE',  ( -0.0000000000000000000, 1.000000000000000000, -0.0000000000000000000 ) ) ;
#116 = ORIENTED_EDGE ( 'NONE', *, *, #298, .F. ) ;
#117 =( LENGTH_UNIT ( ) NAMED_UNIT ( * ) SI_UNIT ( .MILLI., .METRE. ) );
#118 = AXIS2_PLACEMENT_3D ( 'NONE', #96, #307, #254 ) ;
#119 = PLANE ( 'NONE',  #118 ) ;
#120 = ORIENTED_EDGE ( 'NONE', *, *, #114, .F. ) ;
#121 = APPLICATION_CONTEXT ( 'configuration controlled 3d designs of mechanical parts and assemblies' ) ;
#122 = EDGE_CURVE ( 'NONE', #71, #285, #259, .T. ) ;
#123 = APPROVAL ( #41, 'UNSPECIFIED' ) ;
#124 = ORIENTED_EDGE ( 'NONE', *, *, #159, .T. ) ;
#125 = AXIS2_PLACEMENT_3D ( 'NONE', #7, #154, #139 ) ;
#126 = VECTOR ( 'NONE', #181, 1000.000000000000000 ) ;
#127 = ORIENTED_EDGE ( 'NONE', *, *, #100, .F. ) ;
#128 = VERTEX_POINT ( 'NONE', #160 ) ;
#129 = CC_DESIGN_APPROVAL ( #123, ( #222 ) ) ;
#130 = DIRECTION ( 'NONE',  ( 0.0000000000000000000, 0.0000000000000000000, 1.000000000000000000 ) ) ;
#131 = PERSON_AND_ORGANIZATION ( #240, #109 ) ;
#132 = FACE_OUTER_BOUND ( 'NONE', #47, .T. ) ;
#133 = VECTOR ( 'NONE', #84, 1000.000000000000000 ) ;
#134 = PLANE ( 'NONE',  #138 ) ;
#135 = DIRECTION ( 'NONE',  ( -0.0000000000000000000, -0.0000000000000000000, -1.000000000000000000 ) ) ;
#136 = FACE_BOUND ( 'NONE', #51, .T. ) ;
#137 = CARTESIAN_POINT ( 'NONE',  ( -15.00000000000000178, 7.499999999999999112, 120.0000000000000000 ) ) ;
#138 = AXIS2_PLACEMENT_3D ( 'NONE', #260, #217, #56 ) ;
#139 = DIRECTION ( 'NONE',  ( 0.0000000000000000000, 0.0000000000000000000, 1.000000000000000000 ) ) ;
#140 = CARTESIAN_POINT ( 'NONE',  ( -15.00000000000000178, -7.500000000000000888, 0.0000000000000000000 ) ) ;
#141 = CC_DESIGN_SECURITY_CLASSIFICATION ( #222, ( #60 ) ) ;
#142 = DIRECTION ( 'NONE',  ( 0.0000000000000000000, 1.000000000000000000, 0.0000000000000000000 ) ) ;
#143 = PERSON_AND_ORGANIZATION_ROLE ( 'creator' ) ;
#144 = AXIS2_PLACEMENT_3D ( 'NONE', #221, #6, #294 ) ;
#145 = ADVANCED_FACE ( 'NONE', ( #157 ), #36, .F. ) ;
#146 = CALENDAR_DATE ( 2019, 29, 5 ) ;
#147 = DIRECTION ( 'NONE',  ( 1.000000000000000000, 0.0000000000000000000, 0.0000000000000000000 ) ) ;
#148 = ORIENTED_EDGE ( 'NONE', *, *, #216, .T. ) ;
#149 = DESIGN_CONTEXT ( 'detailed design', #228, 'design' ) ;
#150 = EDGE_LOOP ( 'NONE', ( #148, #173, #116, #163 ) ) ;
#151 = VECTOR ( 'NONE', #58, 1000.000000000000000 ) ;
#152 = CC_DESIGN_DATE_AND_TIME_ASSIGNMENT ( #187, #208, ( #186 ) ) ;
#153 = ORIENTED_EDGE ( 'NONE', *, *, #49, .T. ) ;
#154 = DIRECTION ( 'NONE',  ( -0.0000000000000000000, 1.000000000000000000, -0.0000000000000000000 ) ) ;
#155 = LINE ( 'NONE', #250, #77 ) ;
#156 = COORDINATED_UNIVERSAL_TIME_OFFSET ( 2, 0, .AHEAD. ) ;
#157 = FACE_OUTER_BOUND ( 'NONE', #150, .T. ) ;
#158 = EDGE_LOOP ( 'NONE', ( #43, #120, #127, #238 ) ) ;
#159 = EDGE_CURVE ( 'NONE', #285, #281, #272, .T. ) ;
#160 = CARTESIAN_POINT ( 'NONE',  ( 14.99999999999999822, 7.499999999999999112, 0.0000000000000000000 ) ) ;
#161 = LOCAL_TIME ( 14, 34, 58.00000000000000000, #39 ) ;
#162 = APPLICATION_PROTOCOL_DEFINITION ( 'international standard', 'config_control_design', 1994, #228 ) ;
#163 = ORIENTED_EDGE ( 'NONE', *, *, #308, .T. ) ;
#164 = CARTESIAN_POINT ( 'NONE',  ( -15.00000000000000178, -7.500000000000000888, 120.0000000000000000 ) ) ;
#165 = AXIS2_PLACEMENT_3D ( 'NONE', #275, #15, #147 ) ;
#166 = SHAPE_DEFINITION_REPRESENTATION ( #79, #258 ) ;
#167 = EDGE_CURVE ( 'NONE', #71, #232, #26, .T. ) ;
#168 = VECTOR ( 'NONE', #85, 1000.000000000000000 ) ;
#169 = ORIENTED_EDGE ( 'NONE', *, *, #27, .F. ) ;
#170 = COORDINATED_UNIVERSAL_TIME_OFFSET ( 2, 0, .AHEAD. ) ;
#171 = EDGE_LOOP ( 'NONE', ( #220, #278 ) ) ;
#172 = CIRCLE ( 'NONE', #55, 6.999999999999992006 ) ;
#173 = ORIENTED_EDGE ( 'NONE', *, *, #65, .F. ) ;
#174 = PERSON_AND_ORGANIZATION ( #240, #109 ) ;
#175 = CARTESIAN_POINT ( 'NONE',  ( 14.99999999999999822, -7.500000000000000888, 0.0000000000000000000 ) ) ;
#176 = ORIENTED_EDGE ( 'NONE', *, *, #40, .F. ) ;
#177 = PLANE ( 'NONE',  #261 ) ;
#178 = EDGE_LOOP ( 'NONE', ( #237, #19, #32, #124 ) ) ;
#179 = ORIENTED_EDGE ( 'NONE', *, *, #244, .F. ) ;
#180 = DIRECTION ( 'NONE',  ( -0.0000000000000000000, -1.000000000000000000, -0.0000000000000000000 ) ) ;
#181 = DIRECTION ( 'NONE',  ( 0.0000000000000000000, 1.000000000000000000, 0.0000000000000000000 ) ) ;
#182 = VECTOR ( 'NONE', #69, 1000.000000000000000 ) ;
#183 = DATE_AND_TIME ( #256, #210 ) ;
#184 = APPLICATION_PROTOCOL_DEFINITION ( 'international standard', 'config_control_design', 1994, #121 ) ;
#185 = ORIENTED_EDGE ( 'NONE', *, *, #244, .T. ) ;
#186 = PRODUCT_DEFINITION ( 'UNKNOWN', '', #60, #149 ) ;
#187 = DATE_AND_TIME ( #146, #1 ) ;
#188 = ORIENTED_EDGE ( 'NONE', *, *, #236, .T. ) ;
#189 = VECTOR ( 'NONE', #115, 1000.000000000000000 ) ;
#190 = APPROVAL_PERSON_ORGANIZATION ( #264, #123, #280 ) ;
#191 = CC_DESIGN_PERSON_AND_ORGANIZATION_ASSIGNMENT ( #174, #72, ( #60 ) ) ;
#192 = ORIENTED_EDGE ( 'NONE', *, *, #114, .T. ) ;
#193 = LINE ( 'NONE', #61, #189 ) ;
#194 = EDGE_CURVE ( 'NONE', #128, #232, #303, .T. ) ;
#195 = CARTESIAN_POINT ( 'NONE',  ( -15.00000000000000178, 7.499999999999999112, 120.0000000000000000 ) ) ;
#196 = VERTEX_POINT ( 'NONE', #293 ) ;
#197 = CARTESIAN_POINT ( 'NONE',  ( -15.00000000000000178, -7.500000000000000888, 120.0000000000000000 ) ) ;
#198 = DIRECTION ( 'NONE',  ( 0.0000000000000000000, 1.000000000000000000, 0.0000000000000000000 ) ) ;
#199 = DIRECTION ( 'NONE',  ( 0.0000000000000000000, -1.000000000000000000, 0.0000000000000000000 ) ) ;
#200 = DIRECTION ( 'NONE',  ( 0.0000000000000000000, 0.0000000000000000000, 1.000000000000000000 ) ) ;
#201 = ORIENTED_EDGE ( 'NONE', *, *, #194, .T. ) ;
#202 = ADVANCED_FACE ( 'NONE', ( #23 ), #20, .F. ) ;
#203 = PERSON_AND_ORGANIZATION_ROLE ( 'creator' ) ;
#204 = LINE ( 'NONE', #296, #168 ) ;
#205 =( NAMED_UNIT ( * ) SI_UNIT ( $, .STERADIAN. ) SOLID_ANGLE_UNIT ( ) );
#206 = AXIS2_PLACEMENT_3D ( 'NONE', #63, #247, #200 ) ;
#207 = VECTOR ( 'NONE', #13, 1000.000000000000000 ) ;
#208 = DATE_TIME_ROLE ( 'creation_date' ) ;
#209 = DATE_AND_TIME ( #98, #235 ) ;
#210 = LOCAL_TIME ( 14, 34, 58.00000000000000000, #86 ) ;
#211 = FACE_OUTER_BOUND ( 'NONE', #158, .T. ) ;
#212 = ORIENTED_EDGE ( 'NONE', *, *, #251, .F. ) ;
#213 = CC_DESIGN_APPROVAL ( #87, ( #60 ) ) ;
#214 = EDGE_LOOP ( 'NONE', ( #192, #112, #108, #153 ) ) ;
#215 = FACE_BOUND ( 'NONE', #171, .T. ) ;
#216 = EDGE_CURVE ( 'NONE', #75, #128, #155, .T. ) ;
#217 = DIRECTION ( 'NONE',  ( 0.0000000000000000000, 0.0000000000000000000, -1.000000000000000000 ) ) ;
#218 = DIRECTION ( 'NONE',  ( -0.0000000000000000000, 1.000000000000000000, -0.0000000000000000000 ) ) ;
#219 = ORIENTED_EDGE ( 'NONE', *, *, #40, .T. ) ;
#220 = ORIENTED_EDGE ( 'NONE', *, *, #8, .T. ) ;
#221 = CARTESIAN_POINT ( 'NONE',  ( -15.00000000000000178, -7.500000000000000888, 120.0000000000000000 ) ) ;
#222 = SECURITY_CLASSIFICATION ( '', '', #233 ) ;
#223 = CARTESIAN_POINT ( 'NONE',  ( -15.00000000000000178, 7.499999999999999112, 120.0000000000000000 ) ) ;
#224 = CARTESIAN_POINT ( 'NONE',  ( -15.00000000000000178, 7.499999999999999112, 0.0000000000000000000 ) ) ;
#225 = ORIENTED_EDGE ( 'NONE', *, *, #8, .F. ) ;
#226 = DIRECTION ( 'NONE',  ( 0.0000000000000000000, -0.0000000000000000000, -1.000000000000000000 ) ) ;
#227 = ADVANCED_FACE ( 'NONE', ( #215, #22 ), #177, .F. ) ;
#228 = APPLICATION_CONTEXT ( 'configuration controlled 3d designs of mechanical parts and assemblies' ) ;
#229 = ORIENTED_EDGE ( 'NONE', *, *, #65, .T. ) ;
#230 = APPROVAL_STATUS ( 'not_yet_approved' ) ;
#231 = CARTESIAN_POINT ( 'NONE',  ( 14.99999999999999822, -7.500000000000000888, 120.0000000000000000 ) ) ;
#232 = VERTEX_POINT ( 'NONE', #224 ) ;
#233 = SECURITY_CLASSIFICATION_LEVEL ( 'unclassified' ) ;
#234 = VERTEX_POINT ( 'NONE', #88 ) ;
#235 = LOCAL_TIME ( 14, 34, 58.00000000000000000, #156 ) ;
#236 = EDGE_CURVE ( 'NONE', #234, #50, #113, .T. ) ;
#237 = ORIENTED_EDGE ( 'NONE', *, *, #298, .T. ) ;
#238 = ORIENTED_EDGE ( 'NONE', *, *, #194, .F. ) ;
#239 = EDGE_LOOP ( 'NONE', ( #66, #225, #185, #219 ) ) ;
#240 = PERSON ( 'UNSPECIFIED', 'UNSPECIFIED', 'UNSPECIFIED', ('UNSPECIFIED'), ('UNSPECIFIED'), ('UNSPECIFIED') ) ;
#241 = CC_DESIGN_APPROVAL ( #24, ( #186 ) ) ;
#242 = LINE ( 'NONE', #140, #17 ) ;
#243 = DIRECTION ( 'NONE',  ( 0.0000000000000000000, 0.0000000000000000000, 1.000000000000000000 ) ) ;
#244 = EDGE_CURVE ( 'NONE', #3, #50, #193, .T. ) ;
#245 = CARTESIAN_POINT ( 'NONE',  ( 14.99999999999999822, -7.500000000000000888, 120.0000000000000000 ) ) ;
#246 = ORIENTED_EDGE ( 'NONE', *, *, #283, .T. ) ;
#247 = DIRECTION ( 'NONE',  ( -0.0000000000000000000, 1.000000000000000000, -0.0000000000000000000 ) ) ;
#248 =( GEOMETRIC_REPRESENTATION_CONTEXT ( 3 ) GLOBAL_UNCERTAINTY_ASSIGNED_CONTEXT ( ( #284 ) ) GLOBAL_UNIT_ASSIGNED_CONTEXT ( ( #117, #10, #205 ) ) REPRESENTATION_CONTEXT ( 'NONE', 'WORKASPACE' ) );
#249 = CARTESIAN_POINT ( 'NONE',  ( -15.00000000000000178, -7.500000000000000888, 0.0000000000000000000 ) ) ;
#250 = CARTESIAN_POINT ( 'NONE',  ( 14.99999999999999822, -7.500000000000000888, 0.0000000000000000000 ) ) ;
#251 = EDGE_CURVE ( 'NONE', #295, #71, #311, .T. ) ;
#252 = PERSON_AND_ORGANIZATION_ROLE ( 'design_owner' ) ;
#253 = FACE_OUTER_BOUND ( 'NONE', #239, .T. ) ;
#254 = DIRECTION ( 'NONE',  ( -1.000000000000000000, 0.0000000000000000000, -0.0000000000000000000 ) ) ;
#255 = CARTESIAN_POINT ( 'NONE',  ( 14.99999999999999822, -7.500000000000000888, 120.0000000000000000 ) ) ;
#256 = CALENDAR_DATE ( 2019, 29, 5 ) ;
#257 = COORDINATED_UNIVERSAL_TIME_OFFSET ( 2, 0, .AHEAD. ) ;
#258 = ADVANCED_BREP_SHAPE_REPRESENTATION ( '1.24.F03', ( #290, #165 ), #248 ) ;
#259 = LINE ( 'NONE', #197, #99 ) ;
#260 = CARTESIAN_POINT ( 'NONE',  ( 0.0000000000000000000, 0.0000000000000000000, 0.0000000000000000000 ) ) ;
#261 = AXIS2_PLACEMENT_3D ( 'NONE', #34, #198, #274 ) ;
#262 = CARTESIAN_POINT ( 'NONE',  ( -8.673617379884035472E-16, -7.500000000000000888, 60.00000000000000000 ) ) ;
#263 = DIRECTION ( 'NONE',  ( -0.0000000000000000000, 1.000000000000000000, -0.0000000000000000000 ) ) ;
#264 = PERSON_AND_ORGANIZATION ( #240, #109 ) ;
#265 = CYLINDRICAL_SURFACE ( 'NONE', #107, 6.999999999999992006 ) ;
#266 = ORIENTED_EDGE ( 'NONE', *, *, #49, .F. ) ;
#267 = LINE ( 'NONE', #255, #207 ) ;
#268 = CC_DESIGN_PERSON_AND_ORGANIZATION_ASSIGNMENT ( #309, #203, ( #60 ) ) ;
#269 = DIRECTION ( 'NONE',  ( -0.0000000000000000000, -0.0000000000000000000, -1.000000000000000000 ) ) ;
#270 = PERSON_AND_ORGANIZATION ( #240, #109 ) ;
#271 = PLANE ( 'NONE',  #144 ) ;
#272 = LINE ( 'NONE', #110, #151 ) ;
#273 = DIRECTION ( 'NONE',  ( -0.0000000000000000000, -1.000000000000000000, -0.0000000000000000000 ) ) ;
#274 = DIRECTION ( 'NONE',  ( 0.0000000000000000000, -0.0000000000000000000, 1.000000000000000000 ) ) ;
#275 = CARTESIAN_POINT ( 'NONE',  ( 0.0000000000000000000, 0.0000000000000000000, 0.0000000000000000000 ) ) ;
#276 = CIRCLE ( 'NONE', #74, 6.999999999999992006 ) ;
#277 = DIRECTION ( 'NONE',  ( 0.0000000000000000000, 0.0000000000000000000, 1.000000000000000000 ) ) ;
#278 = ORIENTED_EDGE ( 'NONE', *, *, #27, .T. ) ;
#279 = CARTESIAN_POINT ( 'NONE',  ( -1.010897858525791072E-17, 7.499999999999999112, 53.00000000000001421 ) ) ;
#280 = APPROVAL_ROLE ( '' ) ;
#281 = VERTEX_POINT ( 'NONE', #18 ) ;
#282 = CALENDAR_DATE ( 2019, 29, 5 ) ;
#283 = EDGE_CURVE ( 'NONE', #196, #234, #44, .T. ) ;
#284 = UNCERTAINTY_MEASURE_WITH_UNIT (LENGTH_MEASURE( 1.000000000000000082E-05 ), #117, 'distance_accuracy_value', 'NONE');
#285 = VERTEX_POINT ( 'NONE', #164 ) ;
#286 = CARTESIAN_POINT ( 'NONE',  ( -8.673617379884035472E-16, -7.500000000000000888, 66.99999999999998579 ) ) ;
#287 = PERSON_AND_ORGANIZATION ( #240, #109 ) ;
#288 = DIRECTION ( 'NONE',  ( 0.0000000000000000000, 0.0000000000000000000, 1.000000000000000000 ) ) ;
#289 = ORIENTED_EDGE ( 'NONE', *, *, #100, .T. ) ;
#290 = MANIFOLD_SOLID_BREP ( 'M16 Tapped Hole1', #62 ) ;
#291 = CARTESIAN_POINT ( 'NONE',  ( -15.00000000000000178, 7.499999999999999112, 120.0000000000000000 ) ) ;
#292 = LINE ( 'NONE', #231, #126 ) ;
#293 = CARTESIAN_POINT ( 'NONE',  ( -1.010897858525771967E-17, -7.500000000000000888, 53.00000000000001421 ) ) ;
#294 = DIRECTION ( 'NONE',  ( 0.0000000000000000000, 0.0000000000000000000, -1.000000000000000000 ) ) ;
#295 = VERTEX_POINT ( 'NONE', #305 ) ;
#296 = CARTESIAN_POINT ( 'NONE',  ( 14.99999999999999822, 7.499999999999999112, 120.0000000000000000 ) ) ;
#297 = CARTESIAN_POINT ( 'NONE',  ( -8.673617379884035472E-16, 7.500000000000000000, 66.99999999999998579 ) ) ;
#298 = EDGE_CURVE ( 'NONE', #281, #295, #292, .T. ) ;
#299 = ADVANCED_FACE ( 'NONE', ( #12 ), #119, .F. ) ;
#300 = EDGE_LOOP ( 'NONE', ( #169, #246, #188, #179 ) ) ;
#301 = DIRECTION ( 'NONE',  ( -0.0000000000000000000, 1.000000000000000000, -0.0000000000000000000 ) ) ;
#302 = VECTOR ( 'NONE', #95, 1000.000000000000000 ) ;
#303 = LINE ( 'NONE', #57, #133 ) ;
#304 = CARTESIAN_POINT ( 'NONE',  ( -8.673617379884035472E-16, 7.500000000000000000, 60.00000000000000000 ) ) ;
#305 = CARTESIAN_POINT ( 'NONE',  ( 14.99999999999999822, 7.499999999999999112, 120.0000000000000000 ) ) ;
#306 = LINE ( 'NONE', #249, #310 ) ;
#307 = DIRECTION ( 'NONE',  ( 0.0000000000000000000, 0.0000000000000000000, -1.000000000000000000 ) ) ;
#308 = EDGE_CURVE ( 'NONE', #281, #75, #267, .T. ) ;
#309 = PERSON_AND_ORGANIZATION ( #240, #109 ) ;
#310 = VECTOR ( 'NONE', #273, 1000.000000000000000 ) ;
#311 = LINE ( 'NONE', #195, #182 ) ;
ENDSEC;
END-ISO-10303-21;
